Previous Entry Share Next Entry
(no subject)
2012
unknownj
ATTN Ed: Since I can't hear notes that well, try playing this and tell me if it sounds right:

First Intro:

E|-------------------------------------------
B|-5-5-5-4540---5-5-5-4540---5-5-5-4540---5--


Main Intro / Chorus (x4):

E|---------------------------------
B|-4-4-5-4-4-4-4-4-5-5-5-5-5-5-5-5-

E|-------12-----------------------------------------
B|-12-12-12-12-12-12-12-12-12-12-12-12-12-12-12-12--

On the last one play:

E|-------12-----------------------------------------
B|-12-12-12-12-12-12-12-12---12---11---9---7--------


Outro:

(x2)
E|-7-0-7-0- 7-0- 7-0-2-0-2-0-2-0-2-0-
E|-7-0-9-0-11-0-12-0-2-0-2-0-2-0-2-0-

(x2)
E|-7-0-7-0-7-0-7-0-2-0-2-0-2-0-2-0-

E|-7-0-7-0-7-0-7-0-12-0-11-0-9-0-7-0-

E|-7-0-7-0-7-0-7-0-2-0-2-0-2-0-2-0-


Then the other guitar is playing this a bit:

E|-22220000--------22220000--------
B|---------4444222---------4444222-

You get the idea.... It is, of course, meant to be Halfway Decent, with MASSIVE chunks missing... I just want to know if I'm hitting the right notes with that...

  • 1
It sounds fine to me, although maybe you should ask someone who's better on guitar... Like Jason, perhaps? ;-)

Uh, the point is that I'm working this out for myself. It would be self-defeating to actually ask the guitarist, not to mention kinda rude :o)

Hence the ;-) at the end :-p

You'd probably be better off waiting until you get home and checking for yourself, all this work must have sent you crazy and caused you to forget how lame a guitarist I am...

  • 1
?

Log in

No account? Create an account