Previous Entry Share Next Entry
Right, here's the deal
2012
unknownj
All the tabs for Blink 182 - Dammit that I've found online suck royal arse. They're all wrong, as far as I've seen. Um, that's bass tabs, by the way...

Anyway, the correct tab (as far as I can tell) is this:

G ----------
D ----------
A 3-3-5-5-7-
E ----------

G ----------
D ----------
A ----5-5-7-
E 3-3-------

G ----------
D ----------
A ----5-5-7-
E 5-5-------

G ----------
D ----------
A ----7-7-5-
E 1-1-------

Play it for yourselves, it makes sense.... :o)

?

Log in

No account? Create an account