Previous Entry Share Next Entry
Just a quick note...
2012
unknownj
The melody for Lifehouse - Breathing goes something akin to:

E |-----0-0-----------------|
B |-0h2-----0-0-3-3-3-2-2-0-|
G |-------------------------|

E |-----------------------------------|
B |-2-0-2-0-2-2-0-2-0-----3-2-2-2-0-0-|
G |-------------------2-2-------------|

E |-----0-0-------------------|
B |-0h2-----0-0---3-3-2-0-2-2-|
G |-------------2-------------|

E |---------------------------|
B |-0-0-----0---0-0-3-2---0---|
G |-----2-2---2---------2---2-|


It's in a different key, and that doesn't show the timing, but I'm not looking for the right key or the times right now, just the notes. Then I can start working out what chords go with it.... I'll figure out this song if it kills me :o)

  • 1
(Deleted comment)
*lol*

Blah, don't need 'em for the melody for this song... :o)

  • 1
?

Log in

No account? Create an account